Zelda 2: The Adventure of Link – Title Theme – By Fr3rdsky

----------------------------------PLEASE NOTE---------------------------------
This file is the author's own work and represents their interpretation of the
song. You may only use this file for private study, scholarship, or research.
------------------------------------------------------------------------------

NESGT Download Banner 468x60

 Zelda 2 - The Adventure of Link - Title Theme
 Composed by: Akito Natkasuka 
 Arranged by: Fr3rdsky (www.youtube.com/user/fr3rdsky) 



This is my classical guitar arrangement of the intro song. I lowered the low string from E to D-Tuning.
Listen to the video for timing. click here to listen to video.

Intro:

e |-8--7--------8--7--------8--7--------8--7------8-7-----8-7-----8-7-----8-7-----|
B |-8-----8-----------8-----------8----------8--------8-------8-------8-------8---|
G |-7--------7-----------7-----------7---------7--------7-------7-------7-------7-|
D |-------------------------------------------------------------------------------|
A |-------------------------------------------------------------------------------|
D |-------------------------------------------------------------------------------|

Part 1:

e |--------------------------|--------------------------|
B |-3------0---3--1----------|--------------------------|
G |-4------0---4--2----------|-3-----0----3--2----------|
D |--------------------------|-5-----1-------4---4---0--|
A |--------------------------|----------1---------------|
D |-5------0---5--3---3---0--|-1---5---------0----------|

e |--------3------1----------|--------------------------|
B |-3----------6-------------|-4----------4--3----------|
G |-4------4------2----------|-0-----3-----------2------|
D |--------------------------|-------1-------4---4---4--|
A |--------------------------|----------1------------5--|
D |-5------0---5--3---3---0--|-1---5---------0----------|

Part 2:

e |------------4---4--4---5---5--5---6---8-----------|
B |-8---8--8---4---4--4---5---5--5---6---7-----------|
G |-7---7--7-----------------------------------------|
D |--------------------------------------------------|
A |--------------------------------------------------|
D |-5----------5----------5----------5---0---0--4--7-|

Part 3: (2X)

e |-----8---7-----------------------1---0---------------------------|
B |-----5-----8---3---0---0-1---3-----------3---1---3---------------|
G |---------7-----4-------0-2-------2-------2-------4-5---4---------|
D |-------------------------------------------------------5---------|
A |-----------------------------------------------------------------|
D |-5-----5---------5-----3-----2---3-----0---------5-----5---0-5-0-|

Part 4

e |------------------------------------------------------------------------|
B |----------------------------------3-------------------------------------|
G |----------------3--------2-----------------2--------------------3-------|
D |-------1--3--5-----------------4--------4--------------1--3--5----------|
A |----1-----1-----1-----1-----0-----0-----0-----0-----1-----1-----1-----1-|
D |-1-----1-----1-----1-----0-----0-----0-----0-----1-----1-----1-----1----|

e |------------------------------------------------------------------------|
B |-1--------------------------------------------------------3-------------|
G |-------3--2-----------------------------3--------2-----------------2----|
D |-------------------------------1--3--5-----------------4--------4-------|
A |----0-----0-----0-----0-----1-----1-----1-----1-----0-----0-----0-----0-|
D |-0-----0-----0-----0-----1-----1-----1-----1-----0-----0-----0-----0----|

e |--------------------------------------------------|---------------------|
B |-1--------------1--------3------------------------|-3-------------------|
G |----------3---------------------------------------|-4-------------------|
D |-------------------------4------------------------|---------------------|
A |----1-----1-----1-----1-----0-----0-----0-----0---|---------------------|
D |-1-----1-----1-----1-----0-----0-----0-----0------|-5-------------------|

 Brought to you by www.nesgametabs.com
VN:F [1.9.22_1171]
Rating: 9.0/10 (11 votes cast)
Zelda 2: The Adventure of Link - Title Theme - By Fr3rdsky, 9.0 out of 10 based on 11 ratings