Wizards & Warriors – Outside Castle – By Oroz5

#This file is the author's own work and represents their interpretation of the #
#song. You may only use this file for private study, scholarship, or research. #
#------------------------------------------------------------------------------##

NESGT Download Banner 468x60

Wizard & Warriors (NES) - Outside Castle
Composed by: David Wise
Arranged by: Oroz5 (https://www.youtube.com/user/oroz5)
Standard Tuning


Part 1: (3X)

E |----------------8-----6----------|--------3-----3--------4-------|
B |---9-----9--11--------8--8-------|-----------6--------8--6--6----|
G |----------------------------8----|--5-----------------8-----6----|
D |--10-----------------------------|-------------------------------|
A |---8------------------6----------|--3-----------------4----------|
E |---------------------------------|-------------------------------|


Part 2: (2X)

|--8-----8------------6----------|--------3-----3--------4-------|
|--9--------11--9-----8--8-------|-----------6--------8--6--6----|
|---------------------------8----|--5-----------------8-----6----|
|--------------------------------|-------------------------------|
|--8------------------6----------|--3-----------------4----------|
|--------------------------------|-------------------------------|


Part 3: (2X)


|---------------------|---------------------|---------------------|---------------------|
|------8--9--8--9--8--|------8--9--8--9--8--|------8--9--8--9--8--|------8--9--8--9--8--|
|---------------------|---------------------|---------------------|---------------------|
|---------------------|---------------------|---------------------|---------------------|
|--8------------------|--6------------------|---------------------|---------------------|
|---------------------|---------------------|--8------------------|--9------------------|


Repeat as many times as you want.




Brought to you by www.nesgametabs.com
VN:F [1.9.22_1171]
Rating: 10.0/10 (1 vote cast)
Wizards & Warriors - Outside Castle - By Oroz5, 10.0 out of 10 based on 1 rating