Super Mario Bros – Starman Theme – By Fr3rdsky

----------------------------------PLEASE NOTE---------------------------------
This file is the author's own work and represents their interpretation of the
song. You may only use this file for private study, scholarship, or research.
------------------------------------------------------------------------------

NESGT Download Banner 468x60

 Super Mario Bros - (NES) Starman Theme
 Composed by: Koji Kondo
 Tabbed by: fr3rdsky (www.youtube.com/user/fr3rdsky)



This is my guitar arrangement of the Starman Theme. Enjoy!
Click here to watch the video.


e |-8--8--8----8--8-----8--8--|
B |-6--6--6----6--6-----6--6--|
G |------------7-----7-----7--|
D |-0-----7-------------7-----|
A |---------------------------|
E |---------------------------|

e |-7--7--7----7--7-----7--7--|
B |-5--5--5----5--5-----5--5--|
G |------------5-----5-----5--|
D |-------5-------------5-----|
A |-3-------------------------|
E |---------------------------|

Repeat as many times as you want

 Brought to you by www.nesgametabs.com
VN:F [1.9.22_1171]
Rating: 9.4/10 (11 votes cast)
Super Mario Bros - Starman Theme - By Fr3rdsky, 9.4 out of 10 based on 11 ratings