Super Mario Bros – Overworld – By Fr3rdsky

#----------------------------------PLEASE NOTE---------------------------------#
#This file is the author's own work and represents their interpretation of the #
#song. You may only use this file for private study, scholarship, or research. #
#------------------------------------------------------------------------------##

NESGT Download Banner 468x60

Super Mario Bros - Overworld Theme
Composed by: Koji Kondo
Arranged by: fr3rdsky (www.youtube.com/user/fr3rdsky)

 

Standard Tuning EADGBe This is my arrangement of the song. 
Watch my video for timing. Click here to see video... 

Intro: 

e|-12-12-12----12--15-----| 
B|----------13------------| 
G|-11-11-11-11-11--12--12-| 
D|--0--0--0--0--0---------| 
A|-----------------10--10-| 
E|------------------------| 

Part 1 (2x) 

e|-8--3--0---5--7--6-5--------3-5--1-3--0---------| 
B|-5--1--------------------5---------------1--3-0-| 
G|-------0---5--7--6-5---5------------------------|
D|-5--2------3--5--4-3--------2-3--0-2------------| 
A|-------3---------------3--------------3--0--2---| 
E|----------------------------------------------3-| 

Part 2: (2x) 

e|----3-2-1------0----------------------3-2-1-----0----8--8--8----| 
B|----------4------------1-----1h3------------4--------6--6--6----| 
G|------0-----5--------2-----2------------0-----5---------------0-| 
D|-------------------3-----3--------------------------------------| 
A|-3---------------------------------3----------------------------| 
E|-----------------1-----------1----------------------------------| 


e|----3-2-1------0----------------------------------------| 
B|----------4-------------1------1h3---4---3---1----------| 
G|------0-----5--------2-------2------------------0-0-----| 
D|-------------------3------3----------5---3---2----------| 
A|-3---------------------------------------1---3--------3-| 
E|-----------------1-------------1-----4------------------| 

Part 3: 

e|--------------------------------------------------------| 
B|---------------5-----------------------------5----------| 
G|-5-5--5---5-7-----5------------5-5--5---5-7-------------| 
D|-6-6--6-----6--5-----7--5------6-6--6-----6--5----------| 
A|------6-----------7--7--3-----------6----------7--3-----| 
E|-4-------------------------3---4----------------------3-| 


e|-----------------------------|-12-12-12----12--15-----|
B|---------------5-------------|----------13------------| 
G|-5-5--5---5-7----5-----------|-11-11-11-11-11--12--12-| 
D|-6-6--6-----6--5----7--5-----|--0--0--0--0--0---------| 
A|------6----------7--7--3-----|-----------------10--10-| 
E|-4------------------------3--|------------------------| 

Part 4: (2x) 

e|-0---------------1-1----------5-5-5-3-1--0----------| 
B|-1-1-------------1-1-------0--6-6-6-5-3--1-1--------| 
G|---2-0-----1--2------2-----0------0--------2-2-0----| 
D|-----2-----2--3------3-----0-----------------3-2----| 
A|-3-------------------3-------------------3----------| 
E|--------3-----1---------1------------------------3--| 


e|-0---------------1-1-----------1-1-1-0--------------| 
B|-1-1-------------1-1--------0--3-3-3-1--3--1--------| 
G|---2-0-----1--2-------2-----0-----------------0-----| 
D|-----2-----2--3-------3-------------------------2---| 
A|-3--------------------3--------------0--2--3------3-| 
E|--------3-----1----------1--3------3----------------| 


Stage Clear: 
e|-----------0-3------------------4------------------6--6-6-6--8-| 
B|---------1---5--5-----------1-4-4--4-----------3-6-6--6-6-6--5-| 
G|-------0--------5---------1--------5---------3--------7------5-| 
D|-----2------------------1------------------3-------------------| 
A|---3------------------3------------------5---------------------| 
E|-3------------------4------------------6-----------------------| 


NESGT Download Banner 468x60 

Brought to you by www.nesgametabs.com
VN:F [1.9.22_1171]
Rating: 9.0/10 (29 votes cast)
Super Mario Bros - Overworld - By Fr3rdsky, 9.0 out of 10 based on 29 ratings