Super Mario Bros 3 – Underwater – By Fr3rdsky

#----------------------------------PLEASE NOTE---------------------------------#
#This file is the author's own work and represents their interpretation of the #
#song. You may only use this file for private study, scholarship, or research. #
#------------------------------------------------------------------------------##

NESGT Download Banner 468x60

 Super Mario Bros 3 - Underwater Theme
 Composed by: Koji Kondo
 Arranged by: fr3rdsky (www.youtube.com/user/fr3rdsky) 



This is my arrangement of Super Mario Bros 3 - Underwater Theme.
Watch the video for timing. Click here to watch the video.

Standard Tuning EADBGe

Intro:

e|----3--1--------------------------------|
B|-0--------3------------0----------------|
G|-0--4--2------0--1--2-------------------|
D|----------3------------0----------------|
A|--------------2--3--4------0---1---2----|
E|-----------------------3----------------|

 Part 1:  (2X)

e|-------3--2-----5-----2--3--0--------------------|
B|----1--------------------------1-----------1-----|     
G|-0-----------------5--------------0-----2--------|
D|----------------------------------------------4--|
A|-3-----------------------3-----------------------|
E|-------------3-----------------------3-----------|

e|-------3--2-----5-----2--3-----------------------|
B|----1--------------------------1-----------1-----|     
G|-0-----------------5--------0-----0-----0-----0--|
D|-------------------------------------------------|
A|-3-----------------------3-----------------------|
E|-------------3-----------------------3-----------|

 Part 2:

e|-------5--4-----7-----5--3-----5--3--------------|
B|-------------------------------------------------|     
G|-2--5--------------5--------5--------------2-----|
D|-3-----------3-----------2-----------2--2-----2--|
A|-------------------------------------------------|
E|-------------------------------------------------|

e|-------3--1-----3----------5-----------3-----------|
B|----------------------4----------------------3-----|     
G|-0--3--------------3-------5-----5-----4-----------|
D|-1-----------1-------------3--3-----3-----5-----5--|
A|---------------------------------------------------|
E|---------------------------------------3-----------|

 Repeat song as many times as you want.

Brought to you by www.nesgametabs.com
VN:F [1.9.22_1171]
Rating: 9.8/10 (4 votes cast)
Super Mario Bros 3 - Underwater - By Fr3rdsky, 9.8 out of 10 based on 4 ratings