Solomon’s Key – Main Theme – By Viking Guitar

 #----------------------------------PLEASE  NOTE---------------------------------#
 #This file is the author's own work and represents  their interpretation of the #
 #song. You may only use this file for private  study, scholarship, or research. #
 #------------------------------------------------------------------------------##

NESGT Download Banner 468x60

 Solomon's Key (Main Theme)
 Unknown original composer
 Tabbed by VikingGuitar (www.vikingguitar.com)

 Visit my site for my full video game album!

 Standard Tuning (EADGBe)

 NOTE:  This song has a lot  of different parts and likes to play around with
 the timing.  My advice is to learn each  individual part slowly and make
 sure that you memorize it before moving onto the  next.  Unless you're a
 total stud, you'll never remember the whole  thing otherwise.  Also,
 don't be afraid to sweep pick some of the slow  arpeggios.  Good luck.
 Also, don't pay attention to the "timing" of the  written tab.  Just
 listen to the song.

INTRO:

 e|----------------------------------------------------------------------------
 B|----------------------------------------------------------------------------
 G|-------------------------5------------------4-5-4---------------------------
 D|---5---5-4---5-5-6-5-4-5---5-4-5------3-5-6-------6-5-3---------------------
 A|-3--------------------------------5-6-------------------6-5-2-2-5-2-2-5-2---
 E|----------------------------------------------------------------------------

MAIN SECTION 1:

 e|----------------------------------------------------------------------------
 B|----------------------------------------------------------------------------
 G|-5-5-4--5-5-7--5-4-5----5-5-4--5-5-----------5-5-4--5-5-7--5-4-5------------
 D|-----------------------------------5-----5----------------------------------
 A|-------------------------------------6-5------------------------------------
 E|----------------------------------------------------------------------------

 e|----------------------------------------------------------------------------
 B|----------------------------------------------------------------------------
 G|-5-5-4---5-5-------------------------------4-----------4-5-7---5-4-5--------
 D|-------------5-----------------7-7-6---7-7-----7-6-7------------------------
 A|----------------6--5--3-----------------------------------------------------
 E|----------------------------------------------------------------------------

 e|----------------------------------------------------------------------------
 B|---5-6---5------------------------------------------------------------------
 G|-7------------------------4-----------4-5-7-5-4---5-4-----------------------
 D|--------------7-7-6---7-7-----7-6-7-------------7-----7-6-7-----------------
 A|----------------------------------------------------------------------------
 E|----------------------------------------------------------------------------

MAIN SECTION 2:

 e|--------8-7---------------8-7---------------------10-8-7---------8----------
 B|------8-----9-----------8-----9--------------8-----------9-8---8---8--------
 G|----8---------10-7----8---------10-7-------8---10------------8-------8------
 D|-10----------------10-------------------10-----------------------------10---
 A|-------------------------------------10-------------------------------------
 E|----------------------------------------------------------------------------

 e|-------------------------------------------------------10-11-10-------------
 B|-------------------------------------------------12-13----------13-12-------
 G|------7-8-7-----------12-11-12-11-12-11-10-12-13----------------------13-12-
 D|-9-10-------10-9-6----------------------------------------------------------
 A|----------------------------------------------------------------------------
 E|----------------------------------------------------------------------------

 e|----------------------------------------------------------------------------
 B|-------------------------------------------------------13-------13----------
 G|-10----------------------------12-------12-13----10-13-------12-------------
 D|----13-12-10-9--------------------10-13-------12----------13----------------
 A|---------------11-10-8------------------------------------------------------
 E|-----------------------11-10------------------------------------------------

 e|----------------------------------------------------------------------------
 B|-12----12----12------13-10------9-------------------------------------------
 G|----10----10----10---------9------10-9----9-10-9---7------------------------
 D|-----------------------------10--------12------------10-9-7-6---------------
 A|--------------------------------------------------------------8-7-5---------
 E|----------------------------------------------------------------------------

 e|----------------------------------------------------------------------------
 B|----------------------------------------------------------------------------
 G|--------------------------------9-7-----------------------------------------
 D|---10---10---10---12---12---12------10---------12-10-9----------------------
 A|-7----7----7----8----8----8-----------------7----------11----------11-------
 E|---------------------------------------8-10---------------10-12-13----------

 e|---------------------------------------------------------------------------
 B|----------------------------------------------------------------------------
 G|-------------------13-14-16-14-13-------13--------14----14----14----14------
 D|----------12-14-15----------------15-15----15-14-----10----10----10----12---
 A|-12-14-15-------------------------------------------------------------------
 E|----------------------------------------------------------------------------

 e|----------------------------------------------------------------------------
 B|-----------------------12-9-------9-----------------------------------------
 G|-14----14-9-14-9-14-9-------10------10--------------------------------------
 D|----12-------------------------12------12-9-7---10---9----------------------
 A|----------------------------------------------------------------------------
 E|----------------------------------------------------------------------------

OUTRO:

 e|----------------------------------------------------------------------------
 B|-10---8----7---7-----7--9-------10---8------13-10------9-12-9---------------
 G|-------------7---9-----------------------10-------10-9----------------------
 D|----------------------------------------------------------------------------
 A|----------------------------------------------------------------------------
 E|----------------------------------------------------------------------------

 e|----------------------------------------------------------------------------
 B|-10---8----7---7-----7--9-------10---8------13-10-------12-15-12------------
 G|-------------7---9-----------------------10-------10-12---------------------
 D|----------------------------------------------------------------------------
 A|----------------------------------------------------------------------------
 E|----------------------------------------------------------------------------

Brought to you by  www.nesgametabs.com
VN:F [1.9.22_1171]
Rating: 0.0/10 (0 votes cast)