Ninja Gaiden – Ending Theme – By Fr3rdsky

#----------------------------------PLEASE NOTE---------------------------------#
#This file is the author's own work and represents their interpretation of the #
#song. You may only use this file for private study, scholarship, or research. #
#------------------------------------------------------------------------------##

NESGT Download Banner 468x60

 Ninja Gaiden - Ending Theme (Part 1)
 Composed by: Keiji Yamagishi                                 
 Arranged by: Fr3rdsky (www.youtube.com/user/fr3rdsky) 



This is my classical guitar arrangement. Listen to video for timing. 
Click here to watch the video.

Standard Tuning 
e||-----7-----6-------------------------------------------------------------9-----7-|
B||-4-------------4-------------------4---7-----4h7-9-------------------9-----------|
G||---------------------------------------------------------9---------------9-------|
D||-----------------------6---------------6-------------9-------9-------9-------9---|
A||-------------------6-------6-------6-------6-----7---------------7---------------|
E||---------------4---------------4-------------------------------------------------|

e||-7-----6-6-----4-4-------6-4-----------------------------2-------|
B||---------7-------------7-7-----7-4-------------------4---------5-|
G||-----6-------6-------6-------6-----------4---------------4-------|
D||-4---------------4-------------------4-------4-------4-------4---|
A||---------------------------------2---------------2---------------|
E||-----------------------------------------------------------------|

e||-------------------------------------------------4---------6---7-|
B||-4-----------------------5-----4---------------4---------9-------|
G||-------6-6-----------6---6-------4-----------4-------------------|
D||-----6-------6-------6-------6-----------6---------------6-------|
A||-4---------------4-------------------6-------6-------6-------6---|
E||---------------------------------4---------------4---------------|

e||-6-----------------------------6-4--------------(4)-|
B||-------7-7-------7-------7----------------------(4)-|
G||---------8---8-8---8---8---8-----4--------------(4)-|(2nd) time around.
D||-----8-------8-------8-------8-----------6------(6)-|
A||-6---------------6-------------------6-------6--(6)-|
E||---------------------------------4---------------4--| 

Repeat entire song... 

Brought to you by www.nesgametabs.com
VN:F [1.9.22_1171]
Rating: 9.8/10 (11 votes cast)
Ninja Gaiden - Ending Theme - By Fr3rdsky, 9.8 out of 10 based on 11 ratings