Mother – Pollyanna – By Fr3rdsky

#----------------------------------PLEASE  NOTE---------------------------------#
 #This file is the author's own work and  represents their interpretation of the #
 #song. You may only use this file for private  study, scholarship, or research. #
 #------------------------------------------------------------------------------##

NESGT Download Banner 468x60

Mother (NES) - Pollyanna
 Composers: Keiichi Susuki and Hirokazu "Hip" Tanaka
 Arranged By: Fr3rdsky (www.youtube.com/user/fr3rdsky)



This is a classical arrangement for the  acoustic guitar.
 Listen to the song for timing... click here to watch video

Intro

 e||---------------------------------------------------|
 B||------3-2---3---3-3---------------3-2---3---3------|
 G||----4-4-------------2---4-------4-4----------------|
 D||--5-5---2---4---4-4-4---5-----5-5---2---4---4------|
 A||--5-----0---------5-----------5-----0-------5------|
 E||--3---------------------3-----3--------------------|

Part 1 ( 2X )

 e||---------0-----------------------------------2-------------------------|
 B||-------3-----2-3-------------------------3-3-----3--------1------------|
 G||-----2-2-----2----------4--------2---4-4-------2---2----2---0---2---0--|
 D||-4-4-4-----4--------0-4------0-4-----5-----5-4-----4--3-------5--------|
 A||-5-------4--------2--------0----------------------------------0---4----|
 E||-------------------------------------3-------2--------1----------------|

Part 2

 e||-2-0---0--2------------2----7-----------------------------|
 B||-----3--------3----3-----3------4-----3-2-0-2-3-2-0-2-3---|
 G||---4--------3---3----2--------6---6---0-------4-2-0-------|
 D||------------------------------------------------------4---|
 A||-2--------1--------0--------------------------0-------5---|
 E||----------------------------4---------3-------------------|

part 3

 e||-5-5-5---5-2-------------------5-5-5-----------------2-----|
 B||-2-----2-----5-3-----3-----------------5-3-2-3-----3-----3-|
 G||---------------4---------------------------------2-----2---|
 D||-----4-------------5---------------4-----------0-----------|
 A||---4---------4---5-------3-3-----4-----0---0---------------|
 E||-2-----2-------3-----3---------2---------------------------|

 e||--------------------------------------------------------------2-----------|
 B||-0-2-3-2-0-2-3-2-0-2-3-2-0-2-3--------3-2-0-2-3-2-0-2-3-3-3-3-3---3---3---|
 G||-----4-------2-------0-------2----2-2-4-------2-------0-----------0-------|
 D||----------------------------------------------------------------------4---|
 A||-----------------------------------------------------------0----------5---|
 E||-----3-------2-------0-------2--------3-------2-------0-------------------|

 Brought to you by www.nesgametabs.com
VN:F [1.9.22_1171]
Rating: 8.3/10 (15 votes cast)
Mother - Pollyanna - By Fr3rdsky, 8.3 out of 10 based on 15 ratings