Mike Tyson’s Punchout – Fight Theme – By Fr3rdsky

#----------------------------------PLEASE NOTE---------------------------------#
#This file is the author's own work and represents their interpretation of the #
#song. You may only use this file for private study, scholarship, or research. #
#------------------------------------------------------------------------------##

NESGT Download Banner 468x60

Mike Tyson's Punch Out - Fight Theme
Composed by: Yukio Kaneoka, Akito Nakatsuka, Kenji Yamamoto
Arranged by: Fr3rdsky (www.youtube.com/user/fr3rdsky)

This is the main fight theme of the game.

Standard Tuning

Part 1 :

e ||----------------------------|----------------------------|
B ||--5--------------5--5--3----|----------------------------|
G ||--5--------------5--5--4----|----------------------------|
D ||----------------------------|----------------------------|
A ||--0--0--0--0--0--0--0--0----|----------------------------|
E ||----------------------------|--3--3--3--3--3--3--3--3----|

|----------------------------|----------------------------|
|--1--------------1--1--3----|-----------------------3----|
|--2--------------2--2--4----|-----------------------4----|
|----------------------------|----------------------------|
|----------------------------|----------------------------|
|--1--1--1--1--1--1--1--3----|--3--3--3--3--3--3--3--3----|

|----------------------------|----------------------------|
|--5-------------------------|----------------------------|
|--5-------------------------|----------------------------|
|--------7--------7----------|--7-----7--------7----------|
|--0--0-----0--0-----0--0----|-----0-----0--0-----0--0----|
|----------------------------|----------------------------|

Part 2:

|--5--------------7----------|--8-----8-----7--5----------|
|--5--------------5----------|--5-----5-----5--5----------|
|----------------------------|----------------------------|
|----------------------------|----------------------------|
|--0--0--0--0--0--0--0--0----|--0--0--0--0--0--0--0--0----|
|----------------------------|----------------------------|

|--5--------3--------5-------|-----3--------8-----7-------|
|--5--------3--------5-------|-----3--------5-----5-------|
|----------------------------|--------------0--0--0--0----|
|----------------------------|----------------------------|
|----------------------------|----------------------------|
|--3--3--3--3--3--3--3--3----|--3--3--3--3----------------|

|--5-----------------7-------|--8-----8-----7--8----------|
|--5-----------------5-------|--8-----8-----8--8----------|
|----------------------------|----------------------------|
|----------------------------|----------------------------|
|--0--0--0--0--0--0--0--0----|--0--0--0--0--0--0--0--0----|
|----------------------------|----------------------------|

|--12-------10-------12------|-----10-------12-10-12-10---|
|--10-------10-------10------|-----10-------10-10-10-10---|
|----------------------------|----------------------------|
|----------------------------|----------------------------|
|----------------------------|----------------------------|
|--0--0--0--0--0--0--0--0----|--0--0--0--0--0--0--0--0----|

Part 3:

|--5-------------------------|----------------------------|
|--5-------------------------|-----------1-----0----------|
|----------------------------|-----2-----------------0----|
|-----------------------2----|----------------------------|
|--0--0--0--0--0--0--3--0----|--0--0--0--0--0--0--0--0----|
|--------------------5-------|----------------------------|

|----------------------------|----------------------------|
|-----------------------0----|-----1-----0-----1--0-------|
|--------------------2-------|----------------------------|
|----------------------------|----------------------------|
|----------------------------|----------------------------|
|--3--3--3--3--3--3--3--3----|--3--3--3--3--3--3--3--3----|

|----------------------------|----------------------------|
|----------------------------|--------------1--0----------|
|--------------------0--2----|-----2-----2----------------|
|--3-------------------------|----------------------------|
|----------------------------|----------------------------|
|--1--1--1--1--1--1--1--1----|--1--1--1--1--1--1--1--1----|

|--0-------------------------------------------------|
|--0-------------------------------------------------|
|----------------------------------------------------|
|--------------------------------------------2--2----|
|----------------------------------------------------|
|--0-----0-----12----0-----12----0-----12------------|

|----------------------------------||
|----------------------------------||
|----------------------------------||
|-----2--2--0--------2-------------||
|--------------3--0----------------||
|----------------------------------||

Brought to you by www.nesgametabs.com
VN:F [1.9.22_1171]
Rating: 9.7/10 (6 votes cast)
Mike Tyson's Punchout - Fight Theme - By Fr3rdsky, 9.7 out of 10 based on 6 ratings