Metroid – Title Theme – By Fr3rdsky

#----------------------------------PLEASE NOTE---------------------------------#
#This file is the author's own work and represents their interpretation of the #
#song. You may only use this file for private study, scholarship, or research. #
#------------------------------------------------------------------------------##

NESGT Download Banner 468x60

 Game: Metroid (NES) - Title theme
 Composed by: Hirokazu "Hip" Tanaka
 Arranged by: Fr3rdsky (www.youtube.com/user/fr3rdsky)



Tune down the 6th String to D Tuning. Listen to the song for timing.
click here to watch video....

Part 1 (2X)

e||------------------------|-6-6-6-6----------------|------------------------|
B||-3-3-3-3----------------|------------------------|-6-6-6-6----------------|
G||------------------------|------------------------|------------------------|
D||-0----------------------|-0----------------------|-0----------------------|
A||-0----------------------|-0----------------------|-0----------------------|
D||-0----------------------|-0----------------------|-0----------------------|

e||------------------------|------------------------|-8-8-8-8----------------|
B||------------------------|-3-3-3-3----------------|------------------------|
G||------------------------|------------------------|------------------------|
D||-0----------------------|-0----------------------|-0----------------------|
A||-0----------------------|-0----------------------|-0----------------------|
D||-0----------------------|-0----------------------|-0----------------------|

e||-6-6-6-6----------------|------------------------|
B||------------------------|------------------------|
G||------------------------|------------------------|
D||-0----------------------|-0----------------------|
A||-0----------------------|-0----------------------|
D||-0----------------------|-0----------------------|

Part 2

e||-5-------3-------2-------0-----|-3-------2-------0--------------|
B||-------------------------------|-------------------------3------|
G||-----2-------0-----------------|-----0--------------------------|
D||-0-------------------4------2--|-------------4-------2-------0--|
A||-----------------3-------------|-2---------------1--------------|
D||-------------------------------|--------------------------------|

e||-5-------3-------2-------0------|-3-------2-------0--------------|
B||--------------------------------|-------------------------3------|
G||-----2-------0------------------|-----0--------------------------|
D||---------------------4-------2--|-------------4-------2-------0--|
A||-----------------3--------------|-1------------------------------|
D||-4------------------------------|-----------------5--------------|

Part 3

e||---------------------0---2---3--|-5-----------3-2-3-----------2-0|
B||-------------0---3--------------|---------3---------------3------|
G||-----0---2----------------------|-----2---------------0----------|
D||-4------------------------------|--------------------------------|
A||-5---------------3--------------|-2---------------1--------------|
D||--------------------------------|--------------------------------|

e||-------------5--10--------------|-6-------5-------3-------2------|
B||-3-------3----------------------|--------------------------------|
G||-----2--------------------------|-----0-------0-------0-------0--|
D||------------------------12------|--------------------------------|
A||--------------------10------10--|--------------------------------|
D||-4--------------10--------------|-8---------------5--------------|

e||-0-----------2--------------10--|-0-----------2------------------|
B||---------3------10--------------|---------0-------3--------------|
G||-----2--------------------------|-----0-------------------0------|
D||-0----------------------12------|---------------------0-------0--|
A||--------------------12----------|-2---------------1--------------|
D||----------------10--------------|--------------------------------|

e||-------------------------0------|--------------------------------|
B||---------0-------3--------------|-3------------------------------|
G||-2-------------------0-------0--|---------0---3---0-------0------|
D||-----0-------0------------------|-----0---------------0-------0--|
A||-----------------3--------------|-1------------------------------|
D||-4------------------------------|-----------------5--------------|

Part 4

e||-5-----3-----2-----0----|-5-----3-----1-----0----|-5-----3-----1-----3----|
B||------------------------|-------1-----------1----|------------------------|
G||-----2-----2-----2-----2|-----2-----2-----2-----2|-----3-----3-----3-----3|
D||-------0-----------0----|-----3-----------3------|-------1-----------1----|
A||-----0-----------0------|-1-----------1----------|-----1-----------1------|
D||-0-----------0----------|------------------------|-1-----------1----------|

e||-5-----5-----5-----5----|-4-----4-----4-----4----|
B||---5-----5-----5-----5--|---5-----5-----5-----5--|
G||-----4-----4-----4-----4|-----4-----4-----4-----4|
D||-------2-----------2----|-------2-----------2----|
A||-----2-----------2------|-----2-----------2------|
D||-2-----------2----------|-2-----------2----------|

Part 5

e||------------------------|------------------------|------------------------|
B||------------------------|------------------------|------------------------|
G||------------------------|------------------------|------------------------|
D||-0----------------------|-0----------------------|-0----------------------|
A||-0----------------------|-0----------------------|-0----------------------|
D||-0----------------------|-0----------------------|-0----------------------|

e||------------------------|
B||------------------------|
G||------------------------|
D||-0----------------------|
A||-0----------------------|
D||-0----------------------|


NESGT Download Banner 468x60

Brought to you by www.nesgametabs.com
VN:F [1.9.22_1171]
Rating: 9.4/10 (26 votes cast)
Metroid - Title Theme - By Fr3rdsky, 9.4 out of 10 based on 26 ratings