Metroid – Level Intro – By Fr3rdsky

#----------------------------------PLEASE  NOTE---------------------------------#
 #This file is the author's own work and represents  their interpretation of the #
 #song. You may only use this file for private  study, scholarship, or research. #
 #------------------------------------------------------------------------------##

NESGT Download Banner 468x60

Metroid (NES) - Level Intro
Composed by: Hirokazu "Hip" Tanaka
Arranged by: Fr3rdsky (www.youtube.com/user/fr3rdsky)

This is the theme song when Samus appears in the beginning of the level...
Enjoy!

Standard Tuning

E||--------------------5-----5-----5-----|--1-----1-----1-----0-----0-----0-----|
B||--8-----8-----8-----6-----------------|--3-----------------1-----------------|
G||--7--7-----7-----7-----5-----5-----5--|-----3-----3-----3-----0-----0-----0--|
D||--------------------------------------|--------------------------------------|
A||--6-----------------5-----------------|--1-----------------0-----------------|
E||--------------------------------------|--------------------------------------|

||--------------------------------------|-------------------------------------|
||--3-----3-----3--------3-----3-----3--|-----3-----3-----3-----3-------------|
||--2-----------------------------------|-------------------------------------|
||-----0-----0-----0--4-----4-----4-----|--4-----4-----4-----4----------------|
||--0-----------------------------------|-------------------------------------|
||--------------------------------------|-------------------------------------|

Brought to you by  www.nesgametabs.com
VN:F [1.9.22_1171]
Rating: 10.0/10 (3 votes cast)
Metroid - Level Intro - By Fr3rdsky, 10.0 out of 10 based on 3 ratings