Metroid – Kraid’s Lair – By Oroz5

 #----------------------------------PLEASE NOTE---------------------------------#
#This file is the author's own work and represents their interpretation of the #
#song. You may only use this file for private study, scholarship, or research. #
#------------------------------------------------------------------------------##


Metroid (NES) - Kraid's Lair
Composed by: Hirokazu "Hip" Tanaka
Arranged by: Oroz5 (https://www.youtube.com/user/oroz5)

Watch video for timing.



Standard Tuning:

Part 1: (4X)

E|--0----------|--5----------|--2----------|-------------|
B|--------0----|--------1----|--------3----|--0----------|
G|-------------|-------------|-------------|--------3----|
D|-----2-------|-----2-------|-----2-------|-----2-------|
A|-------------|-------------|-------------|-------------|
E|--0----------|--0----------|--0----------|--0----------|



Part 2: (2X)

|--3----------|--0----------|--2----------|--5-----0----|
|--------3----|--------0----|--------3----|-------------|
|-----0-------|-----0-------|-----2-------|-----2-------|
|-------------|-------------|--0----------|--0----------|
|--3----------|--3----------|-------------|-------------|
|-------------|-------------|-------------|-------------|


Part 3: (4X)

|----------------------|----------------------|
|--8-----8-----8-------|--11----11----11------|
|----------------------|-----9-----9-----9----|
|-----9-----9-----9----|--------------10------|
|--------------7-------|--------10------------|
|--0-----7-------------|--8-------------------|

|----------------------|--------------7-------|
|--10----10----10------|--10----7-------------|
|--------------10------|-----8-----8-----8----|
|-----10----10----10---|--------------9-------|
|--8-------------------|--------9-------------|
|--------8-------------|--7-------------------|



Part 4: (2X)  

|----------------------|--2-------------------|
|--------------3-------|-----3----------------|
|--------2h-4-----4----|--------2--0-----0----|
|--2h-4----------------|--------------4-------|
|--------------2-------|--3-----------2-------|
|--0-------------------|----------------------|


|--5h-2----------------|-------------------|
|--------3-------------|-----------3--5----|
|-----------2--0-------|--------4----------|
|-----------------4----|--2--5-------------|
|--2-------------------|--0-----------2----|
|--------------0-------|-------------------|


Part 5: (4X)

|--5--3--2----|--0--2--3----||
|-------------|-------------||
|-------------|-------------||
|-------------|-------------||
|-------------|-------------||
|--0----------|-------------||


Repeat song as many times as you want.



Brought to you by www.nesgametabs.com
VN:F [1.9.22_1171]
Rating: 8.5/10 (15 votes cast)
Metroid - Kraid's Lair - By Oroz5, 8.5 out of 10 based on 15 ratings