Little Nemo: The Dream Master – Intro Theme – By Ivo Koporcic

#----------------------------------PLEASE  NOTE---------------------------------#
 #This file is the author's own work and  represents their interpretation of the #
 #song. You may only use this file for private  study, scholarship, or research. #
 #------------------------------------------------------------------------------##

 Intro
 Little Nemo: The Dream Master
 Composed by: Junko Tamiya
 Arranged by: Ivo Koporcic
 January 11, 2010

       E  S S E  E  E  E     E  E  E  E  E  E     E  S S E  E  E  E
 E||----------------------|--------------------|---------------------|
 B||---3--3-5-3-----2--3--|--5--3--2--3--------|--5--5-7-5-----4--5--|
 G||*-----4---4-----3-----|--2--------1-----1--|-----5---5-----4-----|
 D||*--5---------4--------|--3--------2--4-----|--7---------6--------|
 A||----------------------|--------------------|---------------------|
 E||----------------------|--------------------|---------------------|

   E  E  E  E  E  E     E  E  E  E  E  E     E  E  E  E  E  E
 --3--2--0--2--------|--5-----3--2-----0--|--0--------1-----0--|
 --1--------4--------|--------------------|-----2--3-----------|
 --0-----------------|-----4--------3-----|-----2-----1--------|
 -----------------1--|--2-----------------|--0--------2--------|
 -----------2--4-----|-----------4--------|--------------------|
 --------------------|--------------------|--------------------|

   E  E  E  E  E  E     E  E  E  E  E  E     E  E  E  E  E  E
 --------------------|--------------------|--5-----3--2-----0--|
 --3--------4-----3--|--1-----0--3--------|--------------------|
 -----4--5-----0--2--|--0--------0--------|--------------3--3--|
 --5--------4--------|-----0--------------|-----5--5-----------|
 --0-----------------|-----------------2--|--3--------4--------|
 --------------------|--3-----------3-----|--------------------|

   E  E  E  E  E   E      E  E  E  E  S S E.  S    E  E  E  E  E  E
 -----------7---------|--10--8--7--5--4-5-8---7-|--3-----------------|
 --5------------------|---------0-----3---------|-----3--3-----3--3--|
 -----6--7------------|------------5------------|-----4--4-----4--4--|
 -----7---------------|---6--7------------0-----|--5--------4--------|
 --5--------7--9--11--|-------------------------|--------------------|
 ---------------------|-------------------------|--------------------|

 1.-------------------   2.------------------
   E  E  E  E  E  E       E  E  E  E  E  E     E  E  E  E  E  E
 ---------------------||--3-----------------|--------------------|
 -----3--3-----3--3---||-----3--3-----3--3--|-----3--3-----3--3--|
 -----4--4-----4--4--*||-----4--4-----4--4--|-----0--0-----2--2--|
 --2--------4--------*||--5--------3--------|--2--------4--------|
 ---------------------||--------------------|--------------------|
 ---------------------||--------------------|--------------------|

            ^
   E  E  E  Q.
 --3--------7------|-------||
 -----3--3---------|-------||
 -----4--4--7------|-------||
 --5--------5------|-------||
 ------------------|-------||
 ------------------|-------||

Duration Legend
 ---------------
 W - whole
 H - half
 Q - quarter
 E - 8th
 S - 16th
 . - note dotted

Tablature Legend
 ----------------
 ^ - brush up

Duration Legend

---------------

W - whole
H - half
Q - quarter
E - 8th
S - 16th
T - 32nd
X - 64th
. - note dotted
|-n-|  - n-tuplets

Brought to you by  www.nesgametabs.com
VN:F [1.9.22_1171]
Rating: 10.0/10 (1 vote cast)
Little Nemo: The Dream Master - Intro Theme - By Ivo Koporcic, 10.0 out of 10 based on 1 rating