Legend of Zelda – Underworld – By Kabukibear

-----------------------------------PLEASE  NOTE------------------------------
 This file is the author's own work and represents  their interpretation
 of the song. The owner of this website has not  reviewed the contents of
 this file. If you feel that the content of this file  may be violating
 copyright law, you may not use the information  displayed here in any way.
 ----------------------------------------------------------------------------

NESGT Download Banner 468x60

Underworld
 ~The Legend of Zelda~
 Composed By: Koji Kondo
 Arranged By: Justin Lincoln

Drop D Tuning

      S S S S S S S S S S S S S S S S    S S S S S S S S S S S S S S S S
 E||----------3-----------------------|--------------------------2-------|
 B||------3-------3-------3-------3---|------2-------2-------2-------2---|
 G||----3---3---3---3---3---3---3---3-|----2---2---2---2---2---2---2---2-|
 D||--------------------------0-------|----------------------------------|
 A||------------------1---------------|--4-------------------------------|
 D||--5-------------------------------|----------4-------4---------------|

   S S S S S S S S S S S S S S S S    S S S S S S S S S S S S S S S S
 ----------1-----------------------|--------------------------0-------|
 ------1-------1-------------------|------1-------1-------1-------1---|
 ----1---1---1---1-----5-------5---|----0---0---0---0---0---0---0---0-|
 --------------------6---6---6---6-|----------------------------------|
 --------------------------4-------|--3-------------------------------|
 --3---------------6---------------|----------2-------2---------------|

   S S S S S S S S S S S S S S S S    S S S S S S S S S S S S S S S S
 ----------------------------------|----------------------------------|
 ------1---3---1-------1-------1---|------1---3---1-------1-------1---|
 ----0---0---0---0---0---0---0---0-|----0---0---0---0---0---0---0---0-|
 ------------------1-------0-------|------------------0---------------|
 ----------------------------------|--------------------------4-------|
 --1-------------------------------|--0-------------------------------|

S S S S S S S S S S S S S S S S        S S S S S S S S S S S S S S   E
 ----------------------------------|------------------2---2-5-2-5s-8---||
 ----------------------------------|------1---1-4-1-4---4--------------||
 --------------------------------2-|----2---2-------------------------*||
 ----------------1-----1-4---1-4---|--4-------------------------------*||
 ------0-3---0-3---0-3-----3-------|-----------------------------------||
 --0-4-----4-----------------------|-----------------------------------||

Rit...                          ^           Accel... >    >
 H.           Q       H        H           H        Q    Q
--L------------8----|--7--------3--------|--L------------------|
--------------------|-----------3--------|--L------------------|
--------------------|-----------4--------|--L------------------|
--------------------|-----------5--------|--L------------------|
--------------------|-----------5--------|--L------------------|
--------------------|--------------------|-----------1----0----|
 pp                                   ff
 .
 >
 Q    Q    H
---------------------||
---------------------||
---------------------||
---------------------||
---------------------||
--5------------------||

Duration Legend
---------------
W - whole
H - half
Q - quarter
E - 8th
S - 16th
T - 32nd
X - 64th
. - note dotted
|-n-|  - n-tuplets

Tablature Legend
----------------
L - tied note
s - legato slide
.
> - heavily accented and very short
pp - very quiet
ff - very loud
Rit. - slow down
Accel. - speed up

Brought to you by www.nesgametabs.com
VN:F [1.9.22_1171]
Rating: 7.8/10 (4 votes cast)
Legend of Zelda - Underworld - By Kabukibear, 7.8 out of 10 based on 4 ratings