Legend of Zelda – Triforce Fanfare – By Fr3rdsky

#----------------------------------PLEASE NOTE---------------------------------#
#This file is the author's own work and represents their interpretation of the #
#song. You may only use this file for private study, scholarship, or research. #
#------------------------------------------------------------------------------##

NESGT Download Banner 468x60

Legend of Zelda (NES) - Triforce Fanfare
Composed by: Koji Kondo
Arranged by: Fr3rdsky (www.youtube.com/user/fr3rdsky)



This is my acoustic guitar arrangement of Legend of Zelda 
Triforce Fanfare Theme. Click here to watch the video.

e|-------3-------------------------------------|
B|-3-3-3--------------------0h1-3--------------|
G|-----------------0----0h2--------------------|
D|-----------0-0-0--------------------------0--|
A|------------------------------------0h2h3----|
E|-------3----------------------1---3----------|

e|---------------------------7h8h10-------------|
B|-3-3-3-8--------------8h10-------------0h1h3--|
G|-----------------0------------------0h2-------|
D|-----------0-0-0----------------0-------------|
A|-------6--------------------------------------|
E|----------------------------------------------|

e|--------3-----------------|
B|-3-3-3--3-----------------|
G|--------0-----------------|
D|-0------0-----------------|
A|--------2-----------------|
E|--------3-----------------|

Brought to you by www.nesgametabs.com

VN:F [1.9.22_1171]
Rating: 8.6/10 (13 votes cast)
Legend of Zelda - Triforce Fanfare - By Fr3rdsky, 8.6 out of 10 based on 13 ratings