Legend of Zelda – Title Theme – By Fr3rdsky

#----------------------------------PLEASE  NOTE---------------------------------#
 #This file is the author's own work and  represents their interpretation of the #
 #song. You may only use this file for private  study, scholarship, or research. #
 #------------------------------------------------------------------------------##

NESGT Download Banner 468x60

 The Legend of Zelda (NES) - Title Theme
 Composed by: Koji Kondo
 Arranged by: Fr3rdsky (www.youtube.com/user/fr3rdsky) 

 


This classical guitar version is one key lower than the original video game song. 
If you wish to play it in the same key...use a capo on the 1st fret. 
Click here to watch video.... 

Part 1 (Intro) 

e |-5---------------------------5---|-3---3---------------------------| 
B |---------------------5---5-------|---6-----------------------------| 
G |---------------------------------|---------------------------------| 
D |-----------------7---------------|-----------------5---------------| 
A |---------7-----------------------|---------5-----------------------| 
E |-5-------------------------------|-3-------------------------------| 


e |-5-------------------1---1---5---|-4-2-4---------------------------| 
B |---------------------------------|---------------------------------| 
G |---------------------------------|---------------------------------| 
D |-----------------3---------------|-----------------2---------------| 
A |---------3-----------------------|---------2-----------------------| 
E |-1-------------------------------|-0-------------------------------| 


Part 2 

e |---------------------------------|---------------------------------| 
B |---------------------------------|---------------------------------| 
G |---------------------------------|---------------------------------| 
D |-2---2---2---2---2---2---2---2---|-2---2---2---2---2---2---2---2---| 
A |-3-----0-------0-------0-------0-|-3-----0-------0-------0-------0-| 
E |---------------------------------|---------------------------------| 


e |---------------------------------|-0-------------------------------| 
B |---------------------------0-2-3-|---------------------------------| 
G |-2-------------------2---2-------|---------------------------------| 
D |---------2-----------------------|---------------0-2---------------| 
A |-0-------0-------0-------0-------|-----0---0-2-4-------5---5---5---| 
E |---------------------------------|-3-------3-------3-----3-3-----3-| 


e |---------------------------------|-0-------------------------------| 
B |---------------------------0-2-3-|---------------------------------| 
G |-2-------------------2---2-------|---------------------------------| 
D |---------2-----------------------|---------------0-2---------------| 
A |---------------------------------|-----0---0-2-4-------2---2---2---| 
E |-1-------1-------1-------1-------|-0-------0-------0-----0-0-----0-| 


Part 3 

e |---------------------------------|-0---------------0---0---0-1-3---| 
B |-----------------------------2-3-|-----------0-2-3-----------------| 
G |-2-------------------2---2-4-----|-0-----2-2---------------0-------| 
D |---------2-------------------2---|---------------------------------| 
A |-4-------4---2---4---------------|---------------------------------| 
E |-5-------5-------5-------5-------|-3-------3-------3-------3-------| 


e |-5---------------------5-5-3-1---|-3-----1-0---------------0-------| 
B |-----------------1-------1-------|-1-------------------------------| 
G |-----------0-2-4-----------------|-------2-0-------0-------0---0---| 
D |-------3-3-----------------------|---------------3-----------3-----| 
A |---------------------------------|-3-------3-------3-------3-------| 
E |-1-------1-------1-------1-------|---------------------------------| 


e |-------0-1---------------0-------|---------0-------0---------------| 
B |-3---------------------------3---|-1-----3-----------------3---1---| 
G |-----------------2-------0-------|-----------------0---------------| 
D |-3-------3-----5-------------3---|-2-----0-2-----3---------3---2---| 
A |-1-------1-------1-------1-------|-0-------0-------0-------0-------| 
E |---------------------------------|---------------------------------| 


e |-------------------------2-------|-0-------------------------------| 
B |-0-----2-4-------------------0---|---------------------------------| 
G |-----------------------1-2-------|-1-------------------------------| 
D |-1-------1-----2-4---------------|-2-------5-------4-------3-------| 
A |-2-------2-------2-------2-------|---------7-------7-------7-------| 
E |---------------------------------|-----0---0-------0-------0-------| 


Part 4 

e |---------------------------------|-0---------------0---0---0-1-3---| 
B |-----------------------------2-3-|-----------0-2-3-----------------| 
G |-2---------------------2-2-4-----|-0-----2-2---------------0-2-----| 
D |---------2-------------------2---|---------------------------------| 
A |-4-------4---2---4---------------|---------------------------------| 
E |-5-------5-------5-------5-------|-3-------3-------3-------3-------| 


e |-5-----------------------8-------|-7-------4---------------0-------| 
B |---------------------------------|---------------------------------| 
G |-------------------------8-------|-7-------4---------------1-------| 
D |-3---------------3---------------|---------2-------2-------2-------| 
A |-------------------------8-------|-7-------------------------------| 
E |-1-------1-------1---------------|---------------------------------| 


e |-1-----------------------5-------|-4-------0---------------0-------| 
B |---------------1--4--------------|-5-------0-----------------------| 
G |------------2--------------------|---------------------------------|
D |-1-------1--------1--------------|-2-------2-------2-------2-------| 
A |---0-3---------------------------|---------------------------------| 
E |---------------------------------|---------------------------------|

 
e |-1-----------------------5-------|-4-------0-------0---------------| 
B |---------------1--4--------------|-5-----------------------2-------| 
G |------------2--------------------|---------------------------------| 
D |-1-------1--------1--------------|-2-------2-------2-------2-------| 
A |---0-3---------------------------|---------------------------------| 
E |---------------------------------|---------------------------------| 


e |-------------------------1-------|-0-------------------------------| 
B |-3-------------------------------|---------1-----------------------| 
G |-------------------------3-------|-2-----------------------2-------| 
D |-3-------------------------------|---------2---------------2-------| 
A |-1------1--------1-------1-------|-0-------0-------0-------0-------| 
E |---------------------------------|---------------------------------| 


e |-------------------------2-------|-0-------------------------------| 
B |-0-----2-4-------------------0---|---------------------------------| 
G |-----------------------1-2-------|-1-------------------------------| 
D |-1-------1-----2-4---------------|---------5-------4-------3-------| 
A |-2-------2-------2-------2-------|---------7-------7-------7-------| 
E |---------------------------------|-0---0---0-------0-------0-------| 


e |---------------------------------| 
B |-2-------------------------------| 
G |-2-------------------------------| 
D |-2-------------------------------| 
A |-4-------------------------------| 
E |-5-------------------------------| 


NESGT Download Banner 468x60

Brought to you by www.nesgametabs.com
VN:F [1.9.22_1171]
Rating: 9.2/10 (203 votes cast)
Legend of Zelda - Title Theme - By Fr3rdsky, 9.2 out of 10 based on 203 ratings