Legend of Zelda – Ending Theme – By Falcolink23

#----------------------------------PLEASE NOTE---------------------------------#
#This file is the author's own work and represents their interpretation of the #
#song. You may only use this file for private study, scholarship, or research. #
#------------------------------------------------------------------------------##

NESGT Download Banner 468x60

Legend of Zelda - Ending Theme (Credits)
 Composed by: Koji Kondo
 Arranged by Falcolink23

Standard Tuning EADGBe

E|-0-----------4----|-2-----2-0--------|-2-----2-1--------|------------------|-0-----------4----|
B|-------2-1--------|-----2-------0-2--|-----3-------0-3--|-2-----2-0-----0--|-------2----------|
G|-----2---------1--|---2-------2------|---2-------2------|-----2-------1----|-----2---5--------|
D|---2-------2------|------------------|------------------|---2-------4------|---2---2-------6--|
A|------------------|------------------|------------------|------------------|-0---------7------|
E|------------------|------------------|------------------|-----------0-2-4--|-----0---4---0----|

E|-2-----2-0--------|-2-----2-1--------|------------------|-0-----------4----|-2-------0--------|
B|-----2-------0-2--|-----3-------0-3--|-2-----2-0-----0--|-2-----2----------|-2-------2--------|
G|-----------2------|---2---2---2---2--|-----2-------1----|-------2-5---5----|------------------|
D|---2---2----------|-0-------0--------|---2---2---4------|---2-----6--------|---2---2----------|
A|-0-------0-0-2-4--|-----0-------0----|-4----------------|-0---------7---7--|-0-------0-0-2-4--|
E|-----0------------|------------------|-----0---4-0-2-4--|-----0---4---0----|-----0------------|

E|-2-----4-7---5----|-0----------------|-0-----------------4--|-2-------0--------|
B|-3-----3----------|-2-----2----------|-2-----2---------5----|-2-----2-2--------|
G|---2---2-7---7----|---2---2-4--------|-------2-5-----5------|-------2----------|
D|-0-------0-7---7--|---------6--------|---2-----6------------|---2--------------|
A|-----0-------0----|-4----------------|-0---------7----------|-0-------0-0-2-4--|
E|------------------|-----0---4-0-2-4--|-----0---4---0--------|-----0------------|

E|-2-----4-7-5---2--|------------------|-0-----------------4--|-2-------0--------|
B|-3----------------|-5-----2-0--------|-2-----2---------5----|-2-----2-2--------|
G|---2---4-7-6---2--|-6----------------|-------2-5-----5------|-------2----------|
D|-0-------0-7------|---7---2-0--------|---2-----6------------|---2--------------|
A|-----0-------0----|-4----------------|-0---------7----------|-0-------0-0-2-4--|
E|------------------|-----0---4-0-2-4--|-----0---4---0--------|-----0------------|

E|-2-----4-7-5---7--|-9-----------9-9--|-7---5-------4-2--|-0-------2--------|---------0--------|
B|-3----------------|------------------|-------------3-3--|-2-----2-----2----|-0-2-3-4-----0----|
G|---2---4-7-6---7--|-10----------1010-|-7---7-------4-2--|-2-------3---3----|------------------|
D|-0-------0-7---7--|---11--11--11--11-|-0-7---7-0-7------|---2---2---4---4--|---------2--------|
A|-----0-------0----|-----11------11---|-----0-------4-2--|-0-------1--------|-2-4-5-6----------|
E|------------------|-9-------9--------|------------------|-----0-------2----|-----------0-2-4--|

Brought to you by www.nesgametabs.com
VN:F [1.9.22_1171]
Rating: 9.4/10 (5 votes cast)
Legend of Zelda - Ending Theme - By Falcolink23, 9.4 out of 10 based on 5 ratings