Kid Icarus – Underworld – By Fr3rdsky

----------------------------------PLEASE  NOTE---------------------------------
 This file is the author's own work and represents  their interpretation of the
 song. You may only use this file for private  study, scholarship, or research.
 ------------------------------------------------------------------------------

NESGT Download Banner 468x60

 Kid Icarus  (Underworld Theme)
 Song by Hiro "Hip" Tanaka
 Tabbed by Fr3rdsky (www.youtube.com/user/fr3rdsky)



 I simplified the bass line when  the melody begins. I think it works well
 and it gives me more room to incorporate the key signatures of the song.
 Enjoy!

 ...click here to watch video...

 Part 1 (2X)

 e  |------------------|------------------|------------------|------------------|
 B  |------------------|------------------|------------------|------------------|
 G  |------------------|------------------|------------------|------------------|
 D  |------------------|------------------|------------------|------------------|
 A  |0--0--0--0--------|0--0--0--0--------|0--0--0--0--------|0--0--0--0--------|
 E  |------------------|------------------|------------------|------------------|

 e  |------------------|------------------|4-----------------|2-----------------|
 B  |---------2--------|------------2--5--|4-----------------|4-----------------|
 G  |2--2--2-----------|2--------2--------|---------5--------|---------5--------|
 D  |---------------2--|------------------|------------------|------------------|
 A  |0--------0--------|0--------0--------|0--------0--------|0--------0--------|
 E  |------------------|------------------|------------------|------------------|

 e  |---------5--------|------------5-----|7-----------------|10----------------|
 B  |5--5--5-----------|5--------5--------|8-----------------|7-----------------|
 G  |---------------6--|---------------6--|---------0--------|---------7--------|
 D  |------------------|------------------|------------------|------------------|
 A  |0--------0--------|0--------0--------|0--------0--------|0--------0--------|
 E  |------------------|------------------|------------------|------------------|

Part 2   (2X)

 e  |------------------|------------------|0-----------------|---------0-----0--|
 B  |---------0--------|2--------3--------|------------------|0-----------1-----|
 G  |2-----2-----------|------------------|2--------------2--|------------------|
 D  |------------------|------------------|------------------|------------------|
 A  |0-----0-----------|------------------|------------------|------------------|
 E  |---------4--------|3--------2--------|1--------1--------|1--------1--------|

 e |------------------|------------------|
 B |2-----------------|------------------|
 G |---------1--------|------------------|
 D |2-----4--------4--|2-----------------|
 A |0--------0--------|0-----------------|
 E |------------------|------------------|

Part 3

 e  |------------------|
 B  |------------2--3--|
 G  |---------2--------|
 D  |------------------|
 A  |------------------|
 E  |------------------|

 e  |0-----------------|0-----------------|------------------|------------------|
 B  |0-----------------|2--------3-----2--|3-----------------|---------0--------|
 G  |------------------|------------------|2-----------------|2-----------------|
 D  |------------------|------------------|------------------|0-----------------|
 A  |------------------|------------------|------------------|------------------|
 E  |3--------3--------|3--------3--------|2--------2--------|2--------2--------|

 e  |------------------|------------------|------------------|------------------|
 B  |2--------3-----2--|0-----------------|------------------|------------------|
 G  |2--------4-----2--|---------2--------|2--------1--------|------------------|
 D  |------------------|4--------4--------|4--------2--------|4--------6--------|
 A  |------------------|5--------5--------|4--------4--------|5--------7--------|
 E  |0--------0--------|------------------|------------------|0--------0--------|

 e  |------------------|0-----------------|------------------|------------------|
 B  |---------2-----2--|0--------2--------|3--------2-----0--|---------0--------|
 G  |2-----2-----2-----|---------------2--|2-----------------|2-----------------|
 D  |2--2--------------|------------------|---------2-----0--|---------0--------|
 A  |0--------0--------|------------------|------------------|4-----------------|
 E  |------------------|3--------3--------|2--------2--------|0--------0--------|

 e  |---------0-----0--|2-----------------|------------------|------------------|
 B  |3-----3-----3-----|------------------|---------2-----3--|2-----------------|
 G  |---2--------------|------------------|2-----2-----2-----|------------------|
 D  |0-----------------|0-----------------|---2--------------|------------------|
 A  |------------------|------------------|4-----------------|4-----------------|
 E  |------------------|------------------|------------------|------------------|

 e  |---------------0--|2--------4--------|5--------7--5--7--|9--7--9--10-------|
 B  |3--------2--3-----|------------------|------------------|---------7--------|
 G  |2--------2--------|2--------2--------|7-----------------|9-----------------|
 D  |------------------|0--------1--------|------------------|------------------|
 A  |2--------4--------|------------------|------------------|------------------|
 E  |------------------|------------------|0--------0--------|0--------0--------|

Outro

 e  |------------------|------------------|------------------|------------------|
 B  |------------------|------------------|------------------|------------------|
 G  |------------------|------------------|------------------|------------------|
 D  |------------------|------------------|------------------|------------------|
 A  |0--0--0--0--------|0--0--0--0--------|0--0--0--0--------|0--0--0--0--------|
 E  |------------------|------------------|------------------|------------------|

 e  |------------------|------------------|------------------|------------------|
 B  |------------------|------------------|------------------|------------------|
 G  |------------------|------------------|------------------|------------------|
 D  |------------------|------------------|------------------|------------------|
 A  |0--0--0--0--------|0--0--0--0--------|0--0--0--0--------|0-----------------|
 E  |------------------|------------------|------------------|------------------|

 Brought to you by  www.nesgametabs.com
VN:F [1.9.22_1171]
Rating: 8.3/10 (11 votes cast)
Kid Icarus - Underworld - By Fr3rdsky, 8.3 out of 10 based on 11 ratings