Gauntlet – Intro Theme – By Fr3rdsky

----------------------------------PLEASE  NOTE---------------------------------
 This file is the author's own work and  represents their interpretation of the
 song. You may only use this file for private  study, scholarship, or research.
 ------------------------------------------------------------------------------

Gauntlet (NES) - Intro Theme
Arranged by: fr3rdsky (www.youtube.com/user/fr3rdsky)

  

Watch the video for timing... Click here to watch video

Standard Tuning EADBGe

 e|-0-12-10-8----8----------------------------------|
 B|-----------12---12-10-8--------------------------|
 G|------------------------11-9-8-9-8-9-9-8-9-------|
 D|-------------------------------------------------|
 A|-------------------------------------------------|
 E|-0-------------------------0---------------------|

 e|----7-5-7--------8-7-8---------5-3-5--------7-5-7--------3-2-3--------5-3-5--------2-0-2----|
 B|-5---------8------------10--7---------7--8---------8--5---------5--6---------6--4---------0-|
 G|--------------------------------------------------------------------------------------------|
 D|-5---------5--7-------------4---------4--5------------2---------2--3------------1-----------|
 A|-7---------7----------------5---------5---------------3---------3---------------2-----------|
 E|--------------8--------------------------7-------------------------5------------------------|

 e|---12-10-8--------------------------------|
 B|-----------12-10-8------------------------|
 G|-------------------11---9-----------------|
 D|--------------------------12-10-9---------|
 A|----------------------------------12-10-9-|
 E|-0----------------------0-----------------|

 2nd part

 e|----7-5--7----------8-7--8-----|----5-3--5---------7-5--7-----|-----3-2--3--5-----5-3--5----|
 B|------------8---------------10-|------------7--------------8--|---------------------------6-|
 G|--------------------5----------|-------------------4----------|-----0-------------5---------|
 D|----4----5-------7-------7-----|----2----4------5-------5-----|----------2-----3-------3----|
 A|-7----------7------------------|-5----------5-----------------|--3----------3---------------|
 E|-------------------------------|------------------------------|-----------------------------|

 e|----2-0--2---4---0------------|
 B|-----------------0------------|
 G|-------------4----------------|
 D|-1-------2--------------------|
 A|-2-------------------------6--|
 E|-----------------0---7--9-----|

3rd part

 e|---7----7---7---7------8-7--8-----|---5---5---5---5------7-5-7----|---3---3---3---3-----5-3-5----|
 B|-----10---8---7----------------10-|-----8---7---5---------------8-|-----7---5---3--------------6-|
 G|-------------------9--------------|------------------7------------|------------------5-----------|
 D|-------------------7--------7-----|------------------5-------5----|------------------3------3----|
 A|-7--------7-----------------------|-5-------5---------------------|-3-------3--------------------|
 E|----------------------------------|-------------------------------|------------------------------|

Ending

 e|-0-12-10-8----------------------------------------------------|
 B|-----------12-10-8--------------------------------------------|
 G|-------------------11---9-------------------------------------|
 D|--------------------------12-10-9-----------------------------|
 A|----------------------------------12-10-9---8-9-8-9-8-9-8-9---|
 E|-0----------------------0-------------------0-----------------|

 Brought to you by  www.nesgametabs.com
VN:F [1.9.22_1171]
Rating: 8.9/10 (15 votes cast)
Gauntlet - Intro Theme - By Fr3rdsky, 8.9 out of 10 based on 15 ratings