Friday The 13th – Cabin Theme – By Fr3rdsky

 #----------------------------------PLEASE  NOTE---------------------------------#
 #This file is the author's own work and  represents their interpretation of the #
 #song. You may only use this file for private  study, scholarship, or research. #
 #------------------------------------------------------------------------------##

NESGT Download Banner 468x60

 Friday The 13th (NES) - Cabin Theme
 Arranged by: Fr3rdsky (https://www.youtube.com/user/fr3rdsky)



 This is a simplified arrangement for the  acoustic guitar.
 Listen to the song for timing..... click here to watch video..

Part 1

 e||--2-----2-----0-----0-----2-----2-----0-----0------|
 B||------3-----3-----2-----2-----3-----3-----2-----2--|
 G||----4-----4-----3-----3-----4-----4-----3-----3----|
 D||---------------------------------------------------|
 A||--2-----------1-----------2-----------1------------|
 E||---------------------------------------------------|

 e||--0-----0------------------------------------------|
 B||------2-----2-4-----4-----4-----4-----2-----2------|
 G||----2-----2-------5-----5-----5-----5---0-3---0-3--|
 D||----------------7-----7-----6-----6----------------|
 A||--0-----------3------------------------------------|
 E||--------------------------4-----------3------------|

 e||--2-----2-----0-----0-----2-----2-----0-----0------|
 B||------3-----3-----2-----2-----3-----3-----2-----2--|
 G||----4-----4-----3-----3-----4-----4-----3-----3----|
 D||---------------------------------------------------|
 A||--2-----------1-----------2-----------1------------|
 E||---------------------------------------------------|

 e||--0-----0------------------------------------------|
 B||------2-----2-4-----4-----4-----4-----2---1-2---1--|
 G||----2-----2-------5-----5-----5-----5---1-----1----|
 D||----------------7-----7-----6-----6----------------|
 A||--0-----------3------------------------------------|
 E||--------------------------4-----------2------------|

 e||--------------------------------------------------|
 B||--------------------------------------------------|
 G||--3-0-2-3-0-2-3-0-2-3-0-2-3-0-2-3-0-2-3-0-2-3-0-2-|
 D||--------------------------------------------------|
 A||--------------------------------------------------|
 E||--3-----------3-----------3-----------3-----------|

 Part 2

 e||--------------------------------------------------|
 B||--8-----6-----6-----4-----4-----3-----3-----1-----|
 G||------5-----5-----3-----3-----1-----1-----0---0-1-|
 D||----6-----6-----5-----5-----3-----3-----1---------|
 A||--------------------------------------3-----------|
 E||--4-----------3-----------1-----------------------|

 e||--------------------------------------------------|
 B||--8-----6-----6-----4-----4-----3-----3-----1-----|
 G||------5-----5-----3-----3-----1-----1-----0---0-1-|
 D||----6-----6-----5-----5-----3-----3-----1---------|
 A||--------------------------------------3-----------|
 E||--4-----------3-----------1-----------------------|

Repeat whole song.

Brought to you by www.nesgametabs.com
VN:F [1.9.22_1171]
Rating: 9.2/10 (13 votes cast)
Friday The 13th - Cabin Theme - By Fr3rdsky, 9.2 out of 10 based on 13 ratings