Final Fantasy – Victory Fanfare – By Fr3rdsky

#----------------------------------PLEASE NOTE---------------------------------#
#This file is the author's own work and represents their interpretation of the #
#song. You may only use this file for private study, scholarship, or research. #
#------------------------------------------------------------------------------##

NESGT Download Banner 468x60

 Final Fantasy (NES) - Victory Fanfare
 Composed by: Nobuo Uematsu
 Arranged by: Fr3rdsky (www.youtube.com/user/fr3rdsky)



I added a second guitar on the main part of the song for harmony. Listen to the video for timing.
Click here to watch video.

Intro

e||---------------11-11-11-11------|-7-----9----11----9-11----11--11--|
B||----------8-11--8--8--8--8------|-4-----6-----8----8--8-----8---8--|
G||--------8-------8--8--8--8------|-4-----6-----8----8--8-----8---8--|
D||------8---------8--8--8--8------|-4-----6-----8----8--8------------| 
A||-6-10---------------------------|----------------------------------|
E||--------------------------------|----------------------------------|

Main Part

e||-6---------------6-----------9--|-----9-----------9--------------|
B||---------9---------------9------|--------13----------13----------|
G||--------------------------------|--------------------------------|
D||-----8-------8-------8-------8--|--------------------------------| 
A||-6-------6-------6-------6------|----11------11------11------11--|
E||--------------------------------|-9-------9-------9-------9------| 

e||-6------------------------------|--------------------------------|
B||---------9-------7-------9---6--|--------------------------------|
G||--------------------------------|--------------------------------|
D||-----8-------8-------8-------8--|-----6-------6-------6-------6--| 
A||-6-------6-------6-------6------|--------------------------------|
E||--------------------------------|-9-------9-------9-------9------|

e||-6---------------6-----------9--|-----9-----------9--------------|
B||---------9---------------9------|--------13----------13----------|
G||--------------------------------|--------------------------------|
D||-----8-------8-------8-------8--|--------------------------------| 
A||-6-------6-------6-------6------|----11------11------11------11--|
E||--------------------------------|-9-------9-------9-------9------|

e||-6---------------6-------9--11--|--------------------------------|
B||---------9----------------------|--------------------------------|
G||--------------------------------|--------------------------------|
D||-----8-------8-------8----------|--------------------------------| 
A||-6-------6-------6--------------|-----9-------9-------7-------9--|
E||--------------------------------|-7-------7-------7-------7------|

Repeat as many times as you like......

*(optional) Main Part - 2nd Guitar harmony

e||--------------------------------|--------------------------------|
B||-8-------6-------8-----------6--|-----6-----------6--------------|
G||-------------------------8------|---------8-----------8----------|
D||--------------------------------|--------------------------------| 
A||--------------------------------|--------------------------------|
E||--------------------------------|--------------------------------|

e||--------------------------------|--------------------------------|
B||-8-------6---------------6------|--------------------------------|
G||------------------8----------6--|--------------------------------|
D||--------------------------------|--------------------------------| 
A||--------------------------------|--------------------------------|
E||--------------------------------|--------------------------------|

e||--------------------------------|--------------------------------|
B||-8-------6-------8-----------6--|-----6-----------6--------------|
G||-------------------------8------|---------8-----------8----------|
D||--------------------------------|--------------------------------| 
A||--------------------------------|--------------------------------|
E||--------------------------------|--------------------------------|

`
e||-------------------------6---7--|--------------------------------|
B||-8-------6--------8-------------|--------------------------------|
G||--------------------------------|--------------------------------|
D||--------------------------------|--------------------------------| 
A||--------------------------------|--------------------------------|
E||--------------------------------|--------------------------------|

Brought to you by www.nesgametabs.com
VN:F [1.9.22_1171]
Rating: 9.7/10 (6 votes cast)
Final Fantasy - Victory Fanfare - By Fr3rdsky, 9.7 out of 10 based on 6 ratings