Final Fantasy – Town Theme – By Fr3rdsky

#----------------------------------PLEASE NOTE---------------------------------#
#This file is the author's own work and represents their interpretation of the #
#song. You may only use this file for private study, scholarship, or research. #
#------------------------------------------------------------------------------##

NESGT Download Banner 468x60

Song: Final Fantasy - Town Theme
Composer: Nobue Uematsu
Arranged by: Fr3rdsky (www.youtube.com/user/fr3rdsky)
 


Classical guitar arrangement in standard tuning.
Listen to song for timing... Click here to watch video...

Part 1

e||-0-------3---------------0---1--|-0------------------------------||
B||-----1-----------3--------------|-----3---1---------------1------||
G||-------------0-------0----------|-------------0-------0----------||
D||--------------------------------|-----------------2-----------2--||
A||-3---------------2--------------|-0------------------------------||
E||--------------------------------|-----------------3--------------||

e||-5---------------3-------0---1--|-0---------------0--------------||
B||-------------1-------3----------|-----1-----------------------0--||
G||---------2----------------------|---------0---------------1------||
D||-----3--------------------------|-------------2-------0----------||
A||-----------------2--------------|-3------------------------------||
E||-1------------------------------|-----------------0--------------||

e||-8-------8-------8-------7---5--|-3---------------0--------------||
B||-----5-------5---5--------------|-----3---5---6---1---0---1------||
G||--------------------------------|-4-----------------------2---0--||
D||-------------------------4------|--------------------------------||
A||-----------------5--------------|-----------------3-------0------||
E||-5------------------------------|-3------------------------------||

e||--------------------------------|--------------------------------||
B||-3-----------1---3-------1---3--|-1---------------0-------1---3--||
G||-3-------3-----------3----------|---------0---2---0---2---0------||
D||-----3---------------3----------|-----0--------------------------||
A||-1------------------------------|--------------------------------||
E||--------------------------------|-3---------------3--------------||

Part 2

e||-0-------3---------------0---1--|-0------------------------------||
B||-----1-----------3--------------|-----3---1---------------1------||
G||-------------0-------0----------|-------------0-------0----------||
D||--------------------------------|-----------------2-----------2--||
A||-3---------------2--------------|-0------------------------------||
E||--------------------------------|-----------------3--------------||

e||-5---------------3-------0---1--|-0---------------0--------------||
B||-------------1-------3----------|-----1-----------------------0--||
G||---------2----------------------|---------0---------------1------||
D||-----3--------------------------|-------------2-------0----------||
A||-----------------2--------------|-3------------------------------||
E||-1------------------------------|-----------------0--------------||

e||-8-------8-------8-------7---5--|-3---------------0--------------||
B||-----5-------5---5--------------|-----3---5---6---1-------1------||
G||--------------------------------|-4-----------------------2------||
D||-------------------------4------|--------------------------------||
A||-----------------5--------------|-----------------3-------0------||
E||-5------------------------------|-3------------------------------||

e||--------------------------------|--------------------------------||
B||-3-----------1---3-------1---3--|-1---------------0-------0------||
G||---------3-----------3----------|---------0---2---0---2---0------||
D||-----3---------------3----------|-----0--------------------------||
A||-1------------------------------|--------------------------------||
E||--------------------------------|-3---------------3-------3------||

 Brought to you by www.nesgametabs.com
VN:F [1.9.22_1171]
Rating: 9.4/10 (31 votes cast)
Final Fantasy - Town Theme - By Fr3rdsky, 9.4 out of 10 based on 31 ratings