Dragon Warrior – Overworld – By Fr3rdsky

#----------------------------------PLEASE NOTE---------------------------------#
#This file is the author's own work and represents their interpretation of the #
#song. You may only use this file for private study, scholarship, or research. #
#------------------------------------------------------------------------------##

NESGT Download Banner 468x60 

 Dragon Warrior/Dragon Quest - Overworld Theme                                                                   
 Composed by: Koichi Sugiyama
 Arranged by: fr3rdsky (www.youtube.com/user/fr3rdsky)



This is my arrangement of the Dragon Warrior/Dragon Quest - Overworld Theme. I
simplified the bass part to give it a smooth feel. Enjoy!

Click here to watch the video...

Part 1:   

E|-------5-----3-----------------1--0--------------------0----|
B|-3--------------0-----0-----1--------3-----1-----1--------1-|
G|----2-----2--------0--------------------3-----3-----2-------|
D|-0-----------0-----------0-----------0----------------------|
A|-------------------------------------------------0----------|
E|------------------------------------------------------------|

e|------------------------------------|
B|-3----------------------------------|
G|----2-----2-----2-----2-----3-----5-|
D|-0-----4-----0-----4-----5-----7----|
A|------------------------------------|
E|------------------------------------|

Part 2:

e|-5-----8-----7-----------------3--1--0-----1--3-|
B|----------------0-----0-----0-------------------|
G|----5-----5--------0--------------------3-------|
D|-0-----------0-----------0-----------0----------|
A|------------------------------------------------|.
E|------------------------------------------------|

e|-5----------------------------------------------|
B|------------------------------------------------|
G|----2-----2-----2-----2-----2-----2-----2-----2-|
D|-------2-----------2-----------2----------------|
A|-4-----------5-----------4-----------2-----4----|
E|------------------------------------------------| 

 *Repeat as many times as you want.

Brought to you by www.nesgametabs.com
VN:F [1.9.22_1171]
Rating: 9.7/10 (7 votes cast)
Dragon Warrior - Overworld - By Fr3rdsky, 9.7 out of 10 based on 7 ratings