Donkey Kong – Intro Theme – By Fr3rdsky

#----------------------------------PLEASE  NOTE---------------------------------#
 #This file is the author's own work and represents their interpretation  of the #
 #song. You may only use this file for private study, scholarship, or  research. #
 #------------------------------------------------------------------------------##

NESGT Download Banner 468x60

Donkey Kong (NES) - Intro Theme
Arranged By: Fr3rdsky (www.youtube.com/user/fr3rdsky)



This is a simplified version. I  let the bass notes hang. Listen to the video for
 timing...Click here to watch video



 e|-----5-----------0-3-1-------------|-----6--------------5-----0-------------|
 G|-1-1-------------------3-----------|-3-3--------------8---8-----------------|
 B|---------2---2--------------0---0--|-0-----------------------------0---0----|
 D|-------3---3--------------0---0---0|----------8----8-------------2---2---2--|
 A|-----------------------1-----------|-------10---10------------3-------------|
 E|-----1-----------------------------|-----6----------------------------------|

 e|-0-0---8---------5-6-8--10----------|------5--------------0-1-3-1------------1-|
 G|-1-1---5-----------------6----------|-6-8------------------------------------1-|
 B|---------5---5-------------7---7---7|---7--5---5-3-2-3-5--------2---5-3-2-0--2-|
 D|-----------7---7-------------8---8--|-8----3-3-------------------------------3-|
 A|-3----------------------------------|----------------------------------------3-|
 E|-------5-----------------6----------|---------------------------1-1----------1-| 

Brought to you by  www.nesgametabs.com
VN:F [1.9.22_1171]
Rating: 9.5/10 (33 votes cast)
Donkey Kong - Intro Theme - By Fr3rdsky, 9.5 out of 10 based on 33 ratings