Castlevania – Wicked Child – By Fr3rdsky

#----------------------------------PLEASE NOTE---------------------------------#
#This file is the author's own work and represents their interpretation of the #
#song. You may only use this file for private study, scholarship, or research. #
#------------------------------------------------------------------------------##

NESGT Download Banner 468x60

 Castlevania (NES) - Wicked Child                                                                         
 Composed by: Kinuyo Yamashita
 Arranged by: Fr3rdsky (www.youtube.com/user/fr3rdsky)



This is my acoustic guitar arrangement in standard tuning. Enjoy!
Click here to watch the video... 

Intro:

e||---------1-1-1-0-1---3---1-1-1-0-1-------1-1-1-0-1---3---1-1-1-0-1------|
B||------------------------------------------------------------------------|
G||---------2-2-2-2-2---2---2-2-2-2-2-------3-3-3-3-3---3---3-3-3-3-3------|
D||-----0---------------------------0-----------------------------------0--|
A||-0-3-------------------------------3-1---------------------------1-3----|
E||------------------------------------------------------------------------|

e||-1-1-1-0-1---3---1-1-1-0-1-------1-1-1-0-1---3---1-1-1-0-1---1--|
B||----------------------------------------------------------------|
G||-2-2-2-2-2---2---2-2-2-2-2-------3-3-3-3-3---3---3-3-3-3-3---3--|
D||-------------------------0--------------------------------------|
A||---------------------------3-1---------------------------1---1--|
E||----------------------------------------------------------------|

Part 1:

e||------------------------------------------------------------------|
B||-----5-----4-----3-----2-------------5-----4-----3-----2----------|
G||-----5-----4-----3-----2-------------5-----4-----3-----2----------|
D||-------------------------------0----------------------------------|(2X)
A||-0-----0-0-------0-----0---0-3---0-----0-0-------0-----0---0-3----|
E||---------------------------------------------------------------3--|

e||----12----11----10-----9------------12----11----10-----9----------|
B||----13----11----10-----9------------13----12----11----10----------|
G||------------------------------------------------------------------|
D||-------------------------------0----------------------------------|(2X)
A||-0-0-0-0-0-0-0-0-0-0-0-0-0-0-3---0-0-0-0-0-0-0-0-0-0-0-0-0-0-3----|
E||---------------------------------------------------------------3--|

Part 2:

e||-5-4-5-4-5-----5---5-4-5-------5--|-----8---------8----------------|
B||-------------6-------------6------|---6---------6------------------|
G||-----------7-------------7--------|-7---------7-----------------6--|
D||-0---0---0---0---0---0---0---0----|---------------------8--10------|
A||----------------------------------|--------------------------------|
E||----------------------------------|-6---6---6---6---6---6---6---6--|

e||-5-4-5-4-5-----5---5-4-5-------5--|-----8---------8----------------|
B||-------------6-------------6------|---6---------6-----------6------|
G||-----------7-------------7--------|-7---------7-----------------9--|
D||-0---0---0---0---0---0---0---0----|--------------------------------|
A||----------------------------------|--------------------------------|
E||----------------------------------|-6---6---6---6---6---6---6---6--|

Part 3: (2X)

e||12-8---8------12---8---8----------|-----------10--------------10-----|
B||-----8---8-----------8---8--------|-----10--10----------10--10-------|
G||-----------9---------------9------|-7-10--10-------7--10--10---------|
D||----------------------------------|-0------0---0---0-------0---0-----|
A||----------------------------------|----------------------------------|
E||-8-----8---8---8-------8---8------|----------------------------------|

Part 4: (2X)

e||-1-----3-----5-----------3---5---|-0-----1-----3---------------3----|
B||-3-----5-----6-------6-----------|-1-----3-----5-------5---6--------|
G||---------------------------------|----------------------------------|
D||-0-0-0-0-0-0-0-0-0-0-0-0-0-0-0-0-|----------------------------------|
A||---------------------------------|-3-3-3-3-3-3-3-3-3-3-3-3-3-3-3-3--|
E||---------------------------------|----------------------------------|

e||-------0-----1-----------0---1---|----------------------------------|
B||-3-----1-----3-------3-----------|-2-----3-----5--------------------|
G||-3-------------------------------|-2-----4-----6--------------------|
D||---------------------------------|----------------------------------|
A||-1-1-1-1-1-1-1-1-1-1-1-1-1-1-1-1-|-0-0-0-0-0-0-0-0-0-0-0-0-0-0-0-0--|
E||---------------------------------|----------------------------------|

Part 5: End Part

e||---------------------------------|
B||-5-----6-----8-------------------|
G||-6-----7-----9-------------------|
D||---------------------------------|
A||-0-0-0-0-0-0-0-0-0-0-0-0-0-0-0-0-|
E||---------------------------------|

 Repeat Part 2,3,4 & 5

 brought to you by  www.nesgametabs.com
VN:F [1.9.22_1171]
Rating: 9.9/10 (15 votes cast)
Castlevania - Wicked Child - By Fr3rdsky, 9.9 out of 10 based on 15 ratings