Castlevania 3 – The Beginning – By Fr3rdsky

----------------------------------PLEASE NOTE---------------------------------
This file is the author's own work and represents their interpretation of the
song. You may only use this file for private study, scholarship, or research.
------------------------------------------------------------------------------

NESGT Download Banner 468x60

 Castlevania 3 (NES) - The Beginning
 Composed By: Jun Funahashi, Yukie Morimoto
 Arranged by: Fr3rdsky (www.youtube.com/user/fr3rdsky)



This arrangement is a lot slower than the original game music.
Tune down the 6th string to D tuning.
In Part 1 you can mute the bass part with your thumb or keep it open.
Listen to the video for timing. Click here to watch video...

 Part 1

e |--------------------------------------------------------------|
B |--------3---1---------1---0---------0-------------------2-5---|
G |-----------------------------------------3---3-2-0--3-2-------|
D |--------3---2---------2---0---------0----0----------2---------|
A |----------------------------------------------------0---------|
D |0---0-----0-----0-0-0---0-----0-0-0----0----------------------|

e |-------10---8---------8---7---------7----6--|
B |--------------------------------------------|
G |-------10---9---------9---7---------7----7--|
D |--------------------------------------------|
A |--------------------------------------------|
D |0---0-----0-----0-0-0---0-----0-0-0----0----|

e |-----0--15-12-9-----------------------------|
B |----------------10-8---2--------------------|
G |---6-----------------9---2-0-----3-2-0------|
D |-7---------------------------2---------3-2--|
A |---------0---------------------4------------|
D |--------------------------------------------|

 Part 2 

e |1-0-------------------0-1-0---5-4-----------4---3-----------3--|
B |----3---------------3-------3---------5---------------4--------|
G |------2-----------2--------------------------------------------|
D |--------0---------------0---------------2---------------1------|
A |---------------------------------------------------------------|
D |0---------------0---------------2---------------1--------------|

e |1-0-------------------0-1-0---5-4------------------------------|
B |----3---------------3-------3---------5-----3---2-3-5----------|
G |------2-----------2-----------------------------------2--------|
D |--------0---------------0---------------2----------------------|
A |------------------------------------------------0-------0------|
D |0---------------0---------------2------------------------------|

e |1-0-------------------0-1-0---5-4-----------4---3-----------3--|
B |----3---------------3-------3---------5---------------4--------|
G |------2-----------2--------------------------------------------|
D |--------0---------------0---------------2---------------1------|
A |---------------------------------------------------------------|
D |0---------------0---------------2---------------1--------------|

e |1-0-------------------0-1-0-----------------1---------------5--|
B |----3---------------3-------3---------3---------2---5----------|
G |------2-----------2-----------2-1------------------------------|
D |--------0---------------0---------------2---------------2------|
A |------------------------------------------------0--------------|
D |0---------------0---------------2------------------------------|

 Part 3

e |1-1-1---------------1--3---1-1-1------------------1------|
B |------3--3-------3---------------3--3---------3-----3----|
G |-----------3--------------------------2-----2---2-----2--|
D |---------------------------------------------------------|
A |1--------------------------0-----------------------------|
D |---------------------------------------------------------|

e |------------------------------------------------3---5---|
B |6-6-6------------------6--------2---3---4---5---5-------|
G |------7--7-----------7---7------2---4---5---6-----------|
D |-----------6-----6-9-------9----------------------------|
A |--------------------------------0-------0-------0-------|
D |6-------------------------------------------------------|

 Part 4

e |1---------------0------------------------------|
B |----3---------------3---2----------------------|
G |--------2---1-----------0---2---0---7----------|
D |0-----------2-------------------------------0--|
A |------------------------0-----------8---7------|
D |------------------------------------6----------|

e |--------------------------5-6-5-6-5---5--------|
B |------------6----------------------------------|
G |--------7-------9---7-----7-----------6--------|
D |5---8-------9----------------------------------|
A |5-------------------------0-----------0--------|
D |5-----------6----------------------------------|

 Part 5

e |--------------------------------------------------------------|
B |------3---------------3---------------3---------3----------5--|
G |----2----2----------2----2----------2---------3----------5----|
D |--3--------3------3--------3------3---------3----------5------|
A |----------------3---------------2---------1----------3--------|
D |0-------------------------------------------------------------|

e |------1---------------1---------------1---------1----0-1-3-4--|
B |----3----3----------3----3----------3---------3---------------|
G |--2--------2------2--------2------2---------2-----------------|
D |--------------------------------------------------------------|
A |----------------3---------------2---------1----------0--------|
D |0-------------------------------------------------------------|

e |5-6-5-6-5-6-5-6-5-6-5-6-5-6-5-6-5656565656-5-----|
B |-------------------------------------------------|
G |6-------------------------------6----------------|
D |-------------------------------------------------|
A |0-------------------------------0----------------|
D |-------------------------------------------------|

Repeat entire song if you wish....

Brought to you by www.nesgametabs.com
VN:F [1.9.22_1171]
Rating: 9.6/10 (24 votes cast)
Castlevania 3 - The Beginning - By Fr3rdsky, 9.6 out of 10 based on 24 ratings