Castlevania 3 – Prayer – By Fr3rdsky

#----------------------------------PLEASE NOTE---------------------------------#
#This file is the author's own work and represents their interpretation of the #
#song. You may only use this file for private study, scholarship, or research. #
#------------------------------------------------------------------------------##

NESGT Download Banner 468x60

        Castlevania 3 (NES) - Prayer  
        Composed by: Jun Funahashi, Yukie Morimoto                                
        Arranged by: Fr3rdsky



This is my acoustic guitar arrangement of the level intro theme to the game. 
Enjoy! Click here to watch the video

Standard Tuning

e||---------------------------------------------------------0------|
B||-5h4h5---------------0---1---3---1-----------0---4--------------|
G||-0--------------------------------------------------------------|
D||----------------------------------------------------------------|
A||---------------------------------0------------------------------|
E||-0-------0---2---3-------0-------------------3---2-------0------|

e||---0---0---0---0---0---0---0------0-----------------|
B||-----4---2---0-------0---2-----2--------4--2--4-----|
G||-----------------3-----------3----------------------|
D||----------------------------------------------------| 
A||-1-----------2---4---2---1--------2-----------------|
E||-----------------------------2----------------------|

Brought to you by www.nesgametabs.com
VN:F [1.9.22_1171]
Rating: 8.2/10 (5 votes cast)
Castlevania 3 - Prayer - By Fr3rdsky, 8.2 out of 10 based on 5 ratings