Castlevania 2 – Monster Dance – By Fr3rdsky

#----------------------------------PLEASE NOTE---------------------------------#
#This file is the author's own work and represents their interpretation of the #
#song. You may only use this file for private study, scholarship, or research. #
#------------------------------------------------------------------------------##

NESGT Download Banner 468x60

         Castlevania 2 (NES) - Monster Dance (Night Theme)
        Composed by: Kenichi Matsubara                                
        Arranged by: Fr3rdsky (www.youtube.com/user/fr3rdsky) 



This is a simplified arrangement for the acoustic guitar.
Listen to the song for timing. Enjoy!
Click here to watch video.

Intro: (2X)

e|-0-----0---------3-----3-----3--|
B|---2-3----1--------2-----2------|
G|-------------3-------3-----3----|
D|-2-----2------------------------|
A|-------------1---------1--------|
E|--------------------------------|

Part 1: (2X)

e|-------------0-------------------|---2-----------2---------------2--|
B|-------3---------2-------------0-|-----5-4-5-4-----5-4-5-4---4-5----|
G|---0-4-------------2-------0-2---|-4-----------4-----------4--------|
D|-2-----------------------4-------|----------------------------------|
A|---------------------------------|-2---2---2---2---2---2---2---2----|
E|-0---0---0---0---0---0---0---0---|----------------------------------|

Part 2:

e|-----------0---------------------------------------------------------|
B|-------1--------4---------------3------------0------1----------------|
G|-----2------------------4---------------1-----------2-2---2-0--------|
D|---2---2----------------4--------------------3----------------3-2-0--|
A|-0---------0----2---2-------2-----------2-----------0----------------|
E|--------------------------------1---1--------------------------------|

e|-------------------------------------|
B|---------0---------------------------|
G|-0------------0-----------0-2-0------|
D|---------0----------3-----------3-2--|
A|-------------------------------------|
E|-3---3--------3-----1---1---1-----0--|

Part 3:

e|--------0-0-0--2-2-2-3-3-3-3-2-0---------0-0-0--------------------|
B|-4-4-4-----------------------------4-4-4-------0------------------|
G|------------------------------------------------------------------|
D|------------------------------------------------------------------|
A|-2------2------2-----2-----2---2---2-----2-----2-----2-----2---2--|
E|------------------------------------------------------------------|    

    Repeat song as many times as you want.

Brought to you by www.nesgametabs.com
VN:F [1.9.22_1171]
Rating: 9.7/10 (3 votes cast)
Castlevania 2 - Monster Dance - By Fr3rdsky, 9.7 out of 10 based on 3 ratings