Blaster Master – Area 1 – By Fr3rdsky

#----------------------------------PLEASE NOTE---------------------------------#
#This file is the author's own work and represents their interpretation of the #
#song. You may only use this file for private study, scholarship, or research. #
#------------------------------------------------------------------------------##

        Blaster Master (NES) - Area 1
        Composed By: Naoki Kodaka
        Arranged By: fr3rdsky (www.youtube.com/user/fr3rdsky)


I use my index finger to strum the Intro part. You can strum it any way you want
as long as you only hit the tabbed strings. In some of the parts I also use my 
index finger to bar the whole fret and use my other fingers to help pull off the 
notes. Enjoy :)

Listen to song for timing. Click Here to watch video...

Intro: 

e||---------------------------------8-888-888-888-888-8-888-8---8----|
B||-----------------8-888-888-888-888-888-888-888-888-8-888-8---8----|
G||-7-777-777-777-777-777-777-777-777-777-777-777-777-7-777-7---7----|
D||-0-000-000-000-000-000-000-000-000-000-000-000-000-0-000-0---0----| 
A||------------------------------------------------------------------|
E||------------------------------------------------------------------|

Part 1: (Repeat 2x)

e||------------------------------1---------------------------------|
B||-0-----------------------0-3---------------------6-5-3-----5--3-|
G||-0-------------------0--------3------------------------4------4-|
D||----------------------------------------------------------------|
A||----------------------------------------------------------------|
E||-3-------3-------3-------3-------3-------3-------3-------3------|

e||--------------------------------|----------------------------|
B||--------------------------------|----------------------------|
G||--------------------------------|-----3-----5------3--5------|
D||--------------------------------|-----5-----7------5--7------|
A||--------------------------------|-6------8------6-----8----0-|
E||-3-------3-------3-------3------|----------------------------|

e||------------------------------1--------------------5-3----------|
B||-0-----------------------0-3---------------------6-----6-5----3-|
G||-0-------------------0--------3----------------------------5--4-|
D||----------------------------------------------------------------|
A||----------------------------------------------------------------|
E||-3-------3-------3-------3-------3-------3-------3-------3------|

e||--------------------------------|------------------------------|  
B||--------------------------------|--------------------------(4)-|<-2nd time 
G||--------------------------------|-----3-----5------3--5--------|   around
D||--------------------------------|-----5-----7------5--7--------|  
A||--------------------------------|-6------8------6-----8----(0)-|<-1st time 
E||-3-------3-------3-------3------|------------------------------|  around

Part 2:

e||-----------------3----------------------------------------------|
B||-3-------------------3------------------------------------------|
G||-4--------------------------5----4------------------------------|
D||----------------------------------------------------------------|
A||----------------------------------------------------------------|
E||-3-------3-------3-------3-------3-------3-------3-------3------|

e||----------------------------------------------------------------|
B||-2-----------------------3-5---------3-----------0---2-------3--|
G||-2----------------------------2--0------------------------------|
D||---------2---------------2---------------0---------------0------|
A||-0---------------0----------------------------------------------|
E||---------------------------------3---------------3--------------|

e||-0----------------------------5--3------------------------------|
B||-2-----------------------3-5---------3-----------3--------------|
G||------------------------------3--------------4------------------|
D||---------2---------------2-------------------------------5------|
A||-0---------------0---------------------------------------5------|
E||---------------------------------3-------3-------3--------------|

e||----------------------------------------------------------------|
B||-2-----------------------3-5---------3-------------------0------|
G||-2----------------------------2--0------------------------------|
D||---------2---------------2---------------0---------------0------|
A||-0---------------0----------------------------------------------|
E||---------------------------------3---------------3--------------|

e||-------------------------------------------------2--------------|
B||-2-------------------------------------------2--------2---------|
G||------3----------3-------------------3-----------------------3--|
D||------------4---------4----------4------------------------------|
A||-----------------------------4----------------------------------|
E||-2-------2-------2-------2-------2-------2-------2-------2------|

Break: (Repeat 2X)

e||-----------------------------|-----------------------------|  
B||-----------------------------|-----------------------------| 
G||-----3-----5------3--5-------|-----3-----5------3--5-------|   
D||-----5-----7------5--7-------|-----5-----7------5--7-------|  
A||-6------8------6-----8----8--|-6------8------6-----8----8--|
E||-----------------------------|-----------------------------|  

Part 3:

e||-3-----------------------3-----3--------------------------------|
B||-3--------------------------3----6---------------6---5-------3--|
G||---------------------------------5---------------5---5-------4--|
D||----------------------------------------------------------------|
A||----------------------------------------------------------------|
E||-3-------3-------3-------3-------3-------3-------3-------3------|

e||-3-----------------------------------------------1--------------|
B||-3------------------------------------------1-------------------|
G||--------------------------------------2-------------------------|
D||---------------------------------3------------------------------|
A||----------------------------------------------------------------|
E||-3-------3-------3-------3-------3-------3-------3-------3------|

    Brought to you by www.nesgametabs.com
VN:F [1.9.22_1171]
Rating: 10.0/10 (3 votes cast)
Blaster Master - Area 1 - By Fr3rdsky, 10.0 out of 10 based on 3 ratings